Partition, tablature guitare Cat Stevens Wild world

    Wild world

    Single de: Cat Stevens
    Extrait de l'album: Tea for the Tillerman
    Sortie: 1970
    Genre: Pop
    Auteur-compositeur: Cat Stevens

    Partition niveau expertNiveau Expert


    Voix Homme
    Vidéos Maxitabs

     

    Am   D   G   C   F   Dm   E   E

     

        Now that I've lost everything to you
    You say you want to start something new
    And it's breaking my heart you're leaving
    Baby, I'm grieving

    But if you want to leave, take good care
    Hope you have a lot of nice things to wear
    But then a lot of nice things turn
    bad                out                  there

     

    E|-1111---0000---------|
    B|--------------3330---|
    G|---------------------|
    D|---------------------|
    A|---------------------|
    E|---------------------|

     

       Oh baby baby it's a wild world  

     

    E|---------------------|
    B|--1-0----------------|
    G|------2-0------------|
    D|------------3-2-0- --|
    A|------------------3--|
    E|---------------------|

     

       It's hard to get by just upon a smile  

     

    E|----------------|
    B|----------------|
    G|----------------|
    D|----------------|
    A|------0-3---0---|
    E|--3-3---------3-|

     

       Oh baby baby it's a wild world  

     

    E|---------------------|
    B|--1-0----------------|
    G|------2-0------------|
    D|------------3-2-0-- -|
    A|------------------3--|
    E|---------------------|

     

       I'll always remember you like a child, girl                    

     

      You know I've seen a lot of what the world can do
    And it's breaking my heart in two
    'Cause I never want to see you sad girl
    Don't be a bad girl

    But if you want to leave take good care
    Hope you make a lot of nice friends out there
    But just remember there's a lot of bad
    and             be                 ware

     

    E|-1111---0000---------|
    B|--------------3330---|
    G|---------------------|
    D|---------------------|
    A|---------------------|
    E|---------------------|

     

       Oh baby baby it's a wild world  

     

    E|---------------------|
    B|--1-0----------------|
    G|------2-0------------|
    D|------------3-2-0- --|
    A|------------------3--|
    E|---------------------|

     

       It's hard to get by just upon a smile  

     

    E|----------------|
    B|----------------|
    G|----------------|
    D|----------------|
    A|------0-3---0---|
    E|--3-3---------3-|

     

       Oh baby baby it's a wild world  

     

    E|---------------------|
    B|--1-0----------------|
    G|------2-0------------|
    D|------------3-2-0-- -|
    A|------------------3--|
    E|---------------------|

     

       I'll always remember you like a child, girl                    

     

     

    E|----------------|
    B|----------------|
    G|----------------|
    D|----------------|
    A|------0-3---0---|
    E|--3-3---------3-|

     

       Oh baby baby it's a wild world  

     

    E|---------------------|
    B|--1-0----------------|
    G|------2-0------------|
    D|------------3-2-0- --|
    A|------------------3--|
    E|---------------------|

     

       It's hard to get by just upon a smile  

     

    E|----------------|
    B|----------------|
    G|----------------|
    D|----------------|
    A|------0-3---0---|
    E|--3-3---------3-|

     

       Oh baby baby it's a wild world  

     

    E|---------------------|
    B|--1-0----------------|
    G|------2-0------------|
    D|------------3-2-0-- -|
    A|------------------3--|
    E|---------------------|

     

       I'll always remember you like a child, girl

     

    Am   D   G   C   F   Dm   E   E

     

        Now that I've lost everything to you
    You say you want to start something new
    And it's breaking my heart you're leaving
    Baby, I'm grieving

    But if you want to leave, take good care
    Hope you have a lot of nice things to wear
    But then a lot of nice things turn
    bad                out                  there

     

    E|-1111---0000---------|
    B|--------------3330---|
    G|---------------------|
    D|---------------------|
    A|---------------------|
    E|---------------------|

     

       Oh baby baby it's a wild world  

     

    E|---------------------|
    B|--1-0----------------|
    G|------2-0------------|
    D|------------3-2-0- --|
    A|------------------3--|
    E|---------------------|

     

       It's hard to get by just upon a smile  

     

    E|----------------|
    B|----------------|
    G|----------------|
    D|----------------|
    A|------0-3---0---|
    E|--3-3---------3-|

     

       Oh baby baby it's a wild world  

     

    E|---------------------|
    B|--1-0----------------|
    G|------2-0------------|
    D|------------3-2-0-- -|
    A|------------------3--|
    E|---------------------|

     

       I'll always remember you like a child, girl                    

     

      You know I've seen a lot of what the world can do
    And it's breaking my heart in two
    'Cause I never want to see you sad girl
    Don't be a bad girl

    But if you want to leave take good care
    Hope you make a lot of nice friends out there
    But just remember there's a lot of bad
    and             be                 ware

     

    E|-1111---0000---------|
    B|--------------3330---|
    G|---------------------|
    D|---------------------|
    A|---------------------|
    E|---------------------|

     

       Oh baby baby it's a wild world  

     

    E|---------------------|
    B|--1-0----------------|
    G|------2-0------------|
    D|------------3-2-0- --|
    A|------------------3--|
    E|---------------------|

     

       It's hard to get by just upon a smile  

     

    E|----------------|
    B|----------------|
    G|----------------|
    D|----------------|
    A|------0-3---0---|
    E|--3-3---------3-|

     

       Oh baby baby it's a wild world  

     

    E|---------------------|
    B|--1-0----------------|
    G|------2-0------------|
    D|------------3-2-0-- -|
    A|------------------3--|
    E|---------------------|

     

       I'll always remember you like a child, girl                    

     

     

    E|----------------|
    B|----------------|
    G|----------------|
    D|----------------|
    A|------0-3---0---|
    E|--3-3---------3-|

     

       Oh baby baby it's a wild world  

     

    E|---------------------|
    B|--1-0----------------|
    G|------2-0------------|
    D|------------3-2-0- --|
    A|------------------3--|
    E|---------------------|

     

       It's hard to get by just upon a smile  

     

    E|----------------|
    B|----------------|
    G|----------------|
    D|----------------|
    A|------0-3---0---|
    E|--3-3---------3-|

     

       Oh baby baby it's a wild world  

     

    E|---------------------|
    B|--1-0----------------|
    G|------2-0------------|
    D|------------3-2-0-- -|
    A|------------------3--|
    E|---------------------|

     

       I'll always remember you like a child, girl

    Défilement:
     


    1


    Avez-vous essayé ces autres partitions ?

    • Partition The Turtles – Happy together
    • Partition Kyo – Je saigne encore
    • Partition Aerosmith – I don’t want to miss a thing
    • Partition Roch Voisine – Hélène
    • Partition Joe Dassin – Salut les amoureux
    • Partition Axelle Red – Parce que c’est toi
    • Partition The Beatles – Let it be
    • Partition Muse – Sing for absolution
    • Partition Florent Pagny – Et un jour une femme
    • Partition Ed Sheeran – Perfect
    • Partition Florent Pagny – Ma liberté de penser
    • Partition Stephan Eicher – Déjeuner en paix


    Laisser un commentaire pour cette partition.

    Ce site stocke des données pour les commentaires, consultez notre politique de confidentialité

    X