Partition et tablature guitare Maxime Le Forestier Education sentimentale

    Education sentimentale

    Single de: Maxime Le Forestier
    Extrait de l'album: Mon frère
    Sortie: 1972
    Genre: Chanson française, Ballade
    Auteur-compositeur: Maxime Le Forestier

    Partition niveau expertNiveau Expert


    Voix Homme

     

    0-1-0------------------------0-1-0------3-5-3-1-0-------------0---1-0---------
    -------3-1-0--------0-1---3-------3-----------------3-1-0-1-3---1-----3---1-1-
    ---------------2-1-2-----2-----------------------------------------------------
    -------------------------------------------------------------------------------
    -------------------------------------------------------------------------------
    -------------------------------------------------------------------------------

     

    (A chanter pendant la tablature)
    Ce soir à la brune, nous irons ma brune
    Cueillir des serments
    Cette fleur sauvage qui fait des ravages
    Dans les cœurs d'enfants
    Pour toi, ma princesse j'en ferai des tresses
    Et dans tes cheveux
    Ces serments, ma belle te rendront cruelle
    Pour          tes       a----------moureux...

    Am   Am/G   F   G7   C   C(STOP)

     

    0-1-0------------------------0-1-0------3-5-3-1-0-------------0---1-0---------
    -------3-1-0--------0-1---3-------3-----------------3-1-0-1-3---1-----3---1-1-
    ---------------2-1-2-----2-----------------------------------------------------
    -------------------------------------------------------------------------------
    -------------------------------------------------------------------------------
    -------------------------------------------------------------------------------

     

    (A chanter pendant la tablature)
    Demain à l'aurore nous irons encore
    Glaner dans les champs
    Cueillir des promesses des fleurs de tendresse
    Et de sentiment
    Et sur la colline dans les sauvagines
    Tu te coucheras
    Dans mes bras, ma brune éclairée de lune
    Tu           te          don-----------neras...

    Am   Am/G   F   G7   C   C(STOP)

     

    0-1-0------------------------0-1-0------3-5-3-1-0-------------0---1-0---------
    -------3-1-0--------0-1---3-------3-----------------3-1-0-1-3---1-----3---1-1-
    ---------------2-1-2-----2-----------------------------------------------------
    -------------------------------------------------------------------------------
    -------------------------------------------------------------------------------
    -------------------------------------------------------------------------------

     

    (A chanter pendant la tablature)
    C'est au crépuscule quand la libellule
    S'endort au marais
    Qu'il faudra, voisine quitter la colline
    Et vite rentrer

    Ne dis rien, ma brune pas même à la lune
    Et moi, dans mon coin
    J'irai solitaire je saurai me taire
    Je           ne          dirai                rien

    Am   Am/G   F   G7   C   C(STOP)

     

    0-1-0------------------------0-1-0------3-5-3-1-0-------------0---1-0---------
    -------3-1-0--------0-1---3-------3-----------------3-1-0-1-3---1-----3---1-1-
    ---------------2-1-2-----2-----------------------------------------------------
    -------------------------------------------------------------------------------
    -------------------------------------------------------------------------------
    -------------------------------------------------------------------------------

     

    (A chanter pendant la tablature)
    Ce soir à la brune, nous irons ma brune
    Cueillir des serments
    Cette fleur sauvage qui fait des ravages
    Dans les cœurs d'enfants

     

    CAPO IV

     

    0-1-0------------------------0-1-0------3-5-3-1-0-------------0---1-0---------
    -------3-1-0--------0-1---3-------3-----------------3-1-0-1-3---1-----3---1-1-
    ---------------2-1-2-----2-----------------------------------------------------
    -------------------------------------------------------------------------------
    -------------------------------------------------------------------------------
    -------------------------------------------------------------------------------

     

    (A chanter pendant la tablature)
    Ce soir à la brune, nous irons ma brune
    Cueillir des serments
    Cette fleur sauvage qui fait des ravages
    Dans les cœurs d'enfants
    Pour toi, ma princesse j'en ferai des tresses
    Et dans tes cheveux
    Ces serments, ma belle te rendront cruelle
    Pour          tes       a----------moureux...

    Am   Am/G   F   G7   C   C(STOP)

     

    0-1-0------------------------0-1-0------3-5-3-1-0-------------0---1-0---------
    -------3-1-0--------0-1---3-------3-----------------3-1-0-1-3---1-----3---1-1-
    ---------------2-1-2-----2-----------------------------------------------------
    -------------------------------------------------------------------------------
    -------------------------------------------------------------------------------
    -------------------------------------------------------------------------------

     

    (A chanter pendant la tablature)
    Demain à l'aurore nous irons encore
    Glaner dans les champs
    Cueillir des promesses des fleurs de tendresse
    Et de sentiment
    Et sur la colline dans les sauvagines
    Tu te coucheras
    Dans mes bras, ma brune éclairée de lune
    Tu           te          don-----------neras...

    Am   Am/G   F   G7   C   C(STOP)

     

    0-1-0------------------------0-1-0------3-5-3-1-0-------------0---1-0---------
    -------3-1-0--------0-1---3-------3-----------------3-1-0-1-3---1-----3---1-1-
    ---------------2-1-2-----2-----------------------------------------------------
    -------------------------------------------------------------------------------
    -------------------------------------------------------------------------------
    -------------------------------------------------------------------------------

     

    (A chanter pendant la tablature)
    C'est au crépuscule quand la libellule
    S'endort au marais
    Qu'il faudra, voisine quitter la colline
    Et vite rentrer

    Ne dis rien, ma brune pas même à la lune
    Et moi, dans mon coin
    J'irai solitaire je saurai me taire
    Je           ne          dirai                rien

    Am   Am/G   F   G7   C   C(STOP)

     

    0-1-0------------------------0-1-0------3-5-3-1-0-------------0---1-0---------
    -------3-1-0--------0-1---3-------3-----------------3-1-0-1-3---1-----3---1-1-
    ---------------2-1-2-----2-----------------------------------------------------
    -------------------------------------------------------------------------------
    -------------------------------------------------------------------------------
    -------------------------------------------------------------------------------

     

    (A chanter pendant la tablature)
    Ce soir à la brune, nous irons ma brune
    Cueillir des serments
    Cette fleur sauvage qui fait des ravages
    Dans les cœurs d'enfants

    Défilement:
     


    1


    Avez-vous essayé ces autres partitions ?

    • Partition Florent Pagny – Ma liberté de penser
    • Partition Vanessa Paradis – Ces mots simples
    • Partition Jean Jacques Goldman – Encore un matin
    • Partition Marilyn Monson – Sweet dreams
    • Partition Renaud – Manu
    • Partition Queen – I want to break free
    • Partition Roch Voisine – Hélène
    • Partition Joyce Jonathan – Je ne sais pas
    • Partition Alizée – Moi Lolita
    • Partition Georges Brassens – Une jolie fleur
    • Partition France Gall – Si maman si
    • Partition Joe Dassin – Et si tu n’existais pas
    • Partition Limp Bizkit – Behind blue eyes
    • Partition The Rolling Stones – Paint it black
    • Partition Joe Dassin – Siffler sur la colline
    • Partition Michel Sardou – La java de Broadway
    • Partition Lady Gaga, Bradley Cooper – Shallow (A star is born)
    • Partition Maxime Le Forestier – La petite fugue
    • Partition Garou – Seul
    • Partition Kyo – Ce soir
    • Partition Lara Fabian et Maurane – Tu es mon autre
    • Partition Christophe – Les mots bleus
    • Partition Début de soirée – Nuit de folie
    • Partition Alain Souchon – Foule sentimentale


    Laisser un commentaire pour cette partition.

    Ce site stocke des données pour les commentaires, consultez notre politique de confidentialité

    X