Partition et tablature guitare de Marilyn Manson - Sweet dreams (1)

Marilyn Monson – Sweet dreams

Partition niveau expert

Partition Expert

voir les abonnements Maxitabs

Cours partition

COMMENT JOUER
SWEET DREAMS


Extrait chanson

Favoris & Enregistreur

Exporter

Transposition

Backing Track

e|-----------------------------------------------------------|
B|----------------------------------------------------------|
G|----------------------------------------------------------|
D|-------5----6---5---------------------------------------|
A|-3- 3----3----3---3---------6/8-----------5/6-------|
E|------------------------ 4-4----------3-3---------------|

e|-----------------------------------------------------------|
B|----------------------------------------------------------|
G|----------------------------------------------------------|
D|-------5----6---5---------------------------------------|
A|-3- 3----3----3---3---------6/8-----------5/6-------|
E|------------------------ 4-4----------3-3---------------|

 

     Sweet dreams are made of this
Who am I to disa------gree
Travel the world and the seven     seas
Everybody looking for something

 

Some of them want to use         you
Some of them want to get used by   you
Some of them want to abuse      you
Some of them want to be          abused

 

e|-----------------------------------------------------------|
B|----------------------------------------------------------|
G|----------------------------------------------------------|
D|-------5----6---5---------------------------------------|
A|-3- 3----3----3---3---------6/8-----------5/6-------|
E|------------------------ 4-4----------3-3---------------|

e|-----------------------------------------------------------|
B|----------------------------------------------------------|
G|----------------------------------------------------------|
D|-------5----6---5---------------------------------------|
A|-3- 3----3----3---3---------6/8-----------5/6-------|
E|------------------------ 4-4----------3-3---------------|

 

     Sweet dreams are made of this
Who am I to disa------gree
Travel the world and the seven     seas
Everybody looking for something

Cm(STOP)

e|-----------------------------------------------------------|
B|----------------------------------------------------------|
G|----------------------------------------------------------|
D|-------5----6---5---------------------------------------|
A|-3- 3----3----3---3---------6/8-----------5/6-------|
E|------------------------ 4-4----------3-3---------------|

e|-----------------------------------------------------------|
B|----------------------------------------------------------|
G|----------------------------------------------------------|
D|-------5----6---5---------------------------------------|
A|-3- 3----3----3---3---------6/8-----------5/6-------|
E|------------------------ 4-4----------3-3---------------|

 

     Sweet dreams are made of this
Who am I to disa------gree
Travel the world and the seven     seas
Everybody looking for something

 

Some of them want to use         you
Some of them want to get used by   you
Some of them want to abuse      you
Some of them want to be          abused

 

e|-----------------------------------------------------------|
B|----------------------------------------------------------|
G|----------------------------------------------------------|
D|-------5----6---5---------------------------------------|
A|-3- 3----3----3---3---------6/8-----------5/6-------|
E|------------------------ 4-4----------3-3---------------|

e|-----------------------------------------------------------|
B|----------------------------------------------------------|
G|----------------------------------------------------------|
D|-------5----6---5---------------------------------------|
A|-3- 3----3----3---3---------6/8-----------5/6-------|
E|------------------------ 4-4----------3-3---------------|

 

     Sweet dreams are made of this
Who am I to disa------gree
Travel the world and the seven     seas
Everybody looking for something

Cm(STOP)

Tu as aimé "Sweet dreams" ? essaye ces autres tabs

  • Partition Bad Wolves – Zombie


Laisser un commentaire pour cette partition.  

Ce site stocke des données pour les commentaires, consultez notre politique de confidentialité



En cochant la case, tu acceptes la politique de confidentialité

X