Partitions et tablatures guitare débutant pour apprendre en ligne pour niveau Expert

Cat Stevens – Wild world (voix homme et femme)

Télécharger la partition guitare Cat Stevens – Wild world

Voix Homme Voix Femme

Les accords

Partitions et tablatures guitare débutant pour apprendre en ligne Comment faire un accord à la guitare pour débutant


Comment jouer la partition guitare de Cat Stevens – Wild world ?

 



Capo III


Cats Stevens – Wild World

 

Am    D    G    C    F    Dm    E   E

 

Am                        D                                G

    Now that I've lost everything to you

                          C                                            F

You say you want to start something new

                Dm                                           E

And it's breaking my heart you're leaving

E                                Am

Baby I'm grieving

 

                                  D                            G

But if you wanna leave take good care

                                 C                                  F

Hope you have a lot of nice thing to wear

                         Dm                                  

But there's a lot of nice things turn

E(STOP)   E(STOP)     G(STOP)  

bad             out                 there

 

 

E|-1111---0000--------|

B|--------------3330--|

G|--------------------|

D|--------------------|

A|--------------------|

E|--------------------|

 

 

 

C       G                             F                      F

   Oh Baby baby it's a wild world

 

E|---------------------|

B|--1-0----------------|

G|------2-0------------|

D|------------3-2-0----|

A|------------------3--|

E|---------------------|

 

G                              F                         C          C   

   It's hard to get by just upon a smile

E|----------------|

B|----------------|

G|----------------|

D|----------------|

A|------0-3---0---|

E|--3-3---------3-|

 

C       G                            F                   F

   Oh Baby baby it's a wild world

E|---------------------|

B|--1-0----------------|

G|------2-0------------|

D|------------3-2-0----|

A|------------------3--|

E|---------------------|

 

G                         F                                  C       

   I'll always remember you like a child girl

Dm(x)   E(x)

 

 

 

Am                                       D                                               G

     You know I've seen a lot of what the world can do

               C                                             F

And it's breaking in my heart in two

                   Dm                                E

Cause I never want to see you sad girl

E                                Am

Don't be a bad girl

 

                                  D                            G

But if you wanna leave take good care

                                  C                                        F

Hope you make a lot of nice friends out there

                Dm                        

But just remember there's a lot of bad

E(STOP)   E(STOP)     G(STOP)  

and             be------------ware

 

 

E|-1111---0000--------|

B|--------------3330--|

G|--------------------|

D|--------------------|

A|--------------------|

E|--------------------|

 

 

C       G                             F                      F

   Oh Baby baby it's a wild world

 

E|---------------------|

B|--1-0----------------|

G|------2-0------------|

D|------------3-2-0----|

A|------------------3--|

E|---------------------|

 

G                              F                         C          C   

   It's hard to get by just upon a smile

 

E|----------------|

B|----------------|

G|----------------|

D|----------------|

A|------0-3---0---|

E|--3-3---------3-|

 

C       G                            F                   F

   Oh Baby baby it's a wild world

 

E|---------------------|

B|--1-0----------------|

G|------2-0------------|

D|------------3-2-0----|

A|------------------3--|

E|---------------------|

 

G                         F                                  C(STOP)

   I'll always remember you like a child girl


Wild World
Chanson de Cat Stevens
extrait de l’album Tea for the Tillerman
Sortie septembre 1970
Durée 3:15
Genre folk rock
Auteur-compositeur Cat Stevens
Producteur Paul Samwell-Smith
Label Drapeau : Royaume-Uni Island Records
Drapeau : États-Unis A&M Records
Classement #11 (US)

Pistes de Tea for the Tillerman

Laisser un commentaire

Votre adresse de messagerie ne sera pas publiée. Les champs obligatoires sont indiqués avec *